ISO-10303-21;
HEADER;
/* Generated by software containing ST-Developer
 * from STEP Tools, Inc. (www.steptools.com) 
 */
/* OPTION: using custom schema-name function */

FILE_DESCRIPTION(
/* description */ (''),
/* implementation_level */ '2;1');

FILE_NAME(
/* name */ '17-110_M8008A.stp',
/* time_stamp */ '2022-06-20T08:27:25+02:00',
/* author */ (''),
/* organization */ (''),
/* preprocessor_version */ 'ST-DEVELOPER v18.101',
/* originating_system */ 'SIEMENS PLM Software NX 2008',
/* authorisation */ '');

FILE_SCHEMA (('AUTOMOTIVE_DESIGN { 1 0 10303 214 3 1 1 1 }'));
ENDSEC;

DATA;
#10=PROPERTY_DEFINITION_REPRESENTATION(#14,#12);
#11=PROPERTY_DEFINITION_REPRESENTATION(#15,#13);
#12=REPRESENTATION('',(#16),#257);
#13=REPRESENTATION('',(#17),#257);
#14=PROPERTY_DEFINITION('pmi validation property','',#21);
#15=PROPERTY_DEFINITION('pmi validation property','',#21);
#16=VALUE_REPRESENTATION_ITEM('number of annotations',COUNT_MEASURE(0.));
#17=VALUE_REPRESENTATION_ITEM('number of views',COUNT_MEASURE(0.));
#18=SHAPE_REPRESENTATION_RELATIONSHIP('None',
'relationship between 17-110_M8008A_SSL ITALIA_NICOS_objects-None and 
17-110_M8008A_SSL ITALIA_NICOS_objects-None',#30,#19);
#19=ADVANCED_BREP_SHAPE_REPRESENTATION(
'17-110_M8008A_SSL ITALIA_NICOS_objects-None',(#40),#257);
#20=SHAPE_DEFINITION_REPRESENTATION(#21,#30);
#21=PRODUCT_DEFINITION_SHAPE('','',#22);
#22=PRODUCT_DEFINITION(' ','',#24,#23);
#23=PRODUCT_DEFINITION_CONTEXT('part definition',#29,'design');
#24=PRODUCT_DEFINITION_FORMATION_WITH_SPECIFIED_SOURCE(' ',' ',#26,
 .NOT_KNOWN.);
#25=PRODUCT_RELATED_PRODUCT_CATEGORY('part','',(#26));
#26=PRODUCT('17-110_M8008A_SSL ITALIA_NICOS_objects',
'17-110_M8008A_SSL ITALIA_NICOS_objects',' ',(#27));
#27=PRODUCT_CONTEXT(' ',#29,'mechanical');
#28=APPLICATION_PROTOCOL_DEFINITION('international standard',
'automotive_design',2010,#29);
#29=APPLICATION_CONTEXT(
'core data for automotive mechanical design processes');
#30=SHAPE_REPRESENTATION('17-110_M8008A_SSL ITALIA_NICOS_objects-None',
(#156),#257);
#31=PRESENTATION_LAYER_ASSIGNMENT('1','Layer 1',(#40));
#32=STYLED_ITEM('',(#33),#40);
#33=PRESENTATION_STYLE_ASSIGNMENT((#34));
#34=SURFACE_STYLE_USAGE(.BOTH.,#35);
#35=SURFACE_SIDE_STYLE('',(#36));
#36=SURFACE_STYLE_FILL_AREA(#37);
#37=FILL_AREA_STYLE('',(#38));
#38=FILL_AREA_STYLE_COLOUR('',#39);
#39=DRAUGHTING_PRE_DEFINED_COLOUR('white');
#40=MANIFOLD_SOLID_BREP('',#41);
#41=CLOSED_SHELL('',(#54,#55,#56,#57,#58,#59,#60,#61,#62,#63));
#42=TOROIDAL_SURFACE('',#173,221.89792913343,2.);
#43=TOROIDAL_SURFACE('',#174,223.946219874719,1.);
#44=SURFACE_OF_REVOLUTION('',#48,#46);
#45=SURFACE_OF_REVOLUTION('',#49,#47);
#46=AXIS1_PLACEMENT('',#233,#193);
#47=AXIS1_PLACEMENT('',#253,#210);
#48=B_SPLINE_CURVE_WITH_KNOTS('',3,(#229,#230,#231,#232),.UNSPECIFIED.,
 .F.,.F.,(4,4),(0.,1.),.UNSPECIFIED.);
#49=B_SPLINE_CURVE_WITH_KNOTS('',5,(#247,#248,#249,#250,#251,#252),
 .UNSPECIFIED.,.F.,.F.,(6,6),(0.,1.),.UNSPECIFIED.);
#50=CONICAL_SURFACE('',#163,23.,52.4314079711725);
#51=CONICAL_SURFACE('',#166,219.737961103585,3.00000000000007);
#52=CONICAL_SURFACE('',#172,224.986304738421,2.99999999999943);
#53=CYLINDRICAL_SURFACE('',#161,23.);
#54=ADVANCED_FACE('',(#66,#67),#64,.F.);
#55=ADVANCED_FACE('',(#68,#69),#53,.F.);
#56=ADVANCED_FACE('',(#70,#71),#50,.F.);
#57=ADVANCED_FACE('',(#72,#73),#44,.T.);
#58=ADVANCED_FACE('',(#74,#75),#51,.F.);
#59=ADVANCED_FACE('',(#76,#77),#65,.F.);
#60=ADVANCED_FACE('',(#78,#79),#52,.T.);
#61=ADVANCED_FACE('',(#80,#81),#45,.T.);
#62=ADVANCED_FACE('',(#82,#83),#42,.T.);
#63=ADVANCED_FACE('',(#84,#85),#43,.T.);
#64=PLANE('',#159);
#65=PLANE('',#169);
#66=FACE_BOUND('',#86,.T.);
#67=FACE_BOUND('',#87,.T.);
#68=FACE_BOUND('',#88,.T.);
#69=FACE_BOUND('',#89,.T.);
#70=FACE_BOUND('',#90,.T.);
#71=FACE_BOUND('',#91,.T.);
#72=FACE_BOUND('',#92,.T.);
#73=FACE_BOUND('',#93,.T.);
#74=FACE_BOUND('',#94,.T.);
#75=FACE_BOUND('',#95,.T.);
#76=FACE_BOUND('',#96,.T.);
#77=FACE_BOUND('',#97,.T.);
#78=FACE_BOUND('',#98,.T.);
#79=FACE_BOUND('',#99,.T.);
#80=FACE_BOUND('',#100,.T.);
#81=FACE_BOUND('',#101,.T.);
#82=FACE_BOUND('',#102,.T.);
#83=FACE_BOUND('',#103,.T.);
#84=FACE_BOUND('',#104,.T.);
#85=FACE_BOUND('',#105,.T.);
#86=EDGE_LOOP('',(#106));
#87=EDGE_LOOP('',(#107));
#88=EDGE_LOOP('',(#108));
#89=EDGE_LOOP('',(#109));
#90=EDGE_LOOP('',(#110));
#91=EDGE_LOOP('',(#111));
#92=EDGE_LOOP('',(#112));
#93=EDGE_LOOP('',(#113));
#94=EDGE_LOOP('',(#114));
#95=EDGE_LOOP('',(#115));
#96=EDGE_LOOP('',(#116));
#97=EDGE_LOOP('',(#117));
#98=EDGE_LOOP('',(#118));
#99=EDGE_LOOP('',(#119));
#100=EDGE_LOOP('',(#120));
#101=EDGE_LOOP('',(#121));
#102=EDGE_LOOP('',(#122));
#103=EDGE_LOOP('',(#123));
#104=EDGE_LOOP('',(#124));
#105=EDGE_LOOP('',(#125));
#106=ORIENTED_EDGE('',*,*,#136,.F.);
#107=ORIENTED_EDGE('',*,*,#137,.T.);
#108=ORIENTED_EDGE('',*,*,#138,.F.);
#109=ORIENTED_EDGE('',*,*,#136,.T.);
#110=ORIENTED_EDGE('',*,*,#139,.F.);
#111=ORIENTED_EDGE('',*,*,#138,.T.);
#112=ORIENTED_EDGE('',*,*,#140,.F.);
#113=ORIENTED_EDGE('',*,*,#139,.T.);
#114=ORIENTED_EDGE('',*,*,#141,.T.);
#115=ORIENTED_EDGE('',*,*,#140,.T.);
#116=ORIENTED_EDGE('',*,*,#142,.T.);
#117=ORIENTED_EDGE('',*,*,#143,.T.);
#118=ORIENTED_EDGE('',*,*,#144,.T.);
#119=ORIENTED_EDGE('',*,*,#145,.F.);
#120=ORIENTED_EDGE('',*,*,#137,.F.);
#121=ORIENTED_EDGE('',*,*,#145,.T.);
#122=ORIENTED_EDGE('',*,*,#141,.F.);
#123=ORIENTED_EDGE('',*,*,#143,.F.);
#124=ORIENTED_EDGE('',*,*,#142,.F.);
#125=ORIENTED_EDGE('',*,*,#144,.F.);
#126=VERTEX_POINT('',#217);
#127=VERTEX_POINT('',#219);
#128=VERTEX_POINT('',#222);
#129=VERTEX_POINT('',#225);
#130=VERTEX_POINT('',#228);
#131=VERTEX_POINT('',#235);
#132=VERTEX_POINT('',#238);
#133=VERTEX_POINT('',#240);
#134=VERTEX_POINT('',#243);
#135=VERTEX_POINT('',#245);
#136=EDGE_CURVE('',#126,#126,#146,.T.);
#137=EDGE_CURVE('',#127,#127,#147,.T.);
#138=EDGE_CURVE('',#128,#128,#148,.T.);
#139=EDGE_CURVE('',#129,#129,#149,.T.);
#140=EDGE_CURVE('',#130,#130,#150,.T.);
#141=EDGE_CURVE('',#131,#131,#151,.T.);
#142=EDGE_CURVE('',#132,#132,#152,.T.);
#143=EDGE_CURVE('',#133,#133,#153,.T.);
#144=EDGE_CURVE('',#134,#134,#154,.T.);
#145=EDGE_CURVE('',#135,#135,#155,.T.);
#146=CIRCLE('',#157,23.);
#147=CIRCLE('',#158,85.);
#148=CIRCLE('',#160,23.);
#149=CIRCLE('',#162,36.);
#150=CIRCLE('',#164,219.737961103585);
#151=CIRCLE('',#165,219.900670063921);
#152=CIRCLE('',#167,223.946219874719);
#153=CIRCLE('',#168,221.89792913343);
#154=CIRCLE('',#170,224.944849409474);
#155=CIRCLE('',#171,224.724265842006);
#156=AXIS2_PLACEMENT_3D('',#215,#175,#176);
#157=AXIS2_PLACEMENT_3D('',#216,#177,#178);
#158=AXIS2_PLACEMENT_3D('',#218,#179,#180);
#159=AXIS2_PLACEMENT_3D('',#220,#181,#182);
#160=AXIS2_PLACEMENT_3D('',#221,#183,#184);
#161=AXIS2_PLACEMENT_3D('',#223,#185,#186);
#162=AXIS2_PLACEMENT_3D('',#224,#187,#188);
#163=AXIS2_PLACEMENT_3D('',#226,#189,#190);
#164=AXIS2_PLACEMENT_3D('',#227,#191,#192);
#165=AXIS2_PLACEMENT_3D('',#234,#194,#195);
#166=AXIS2_PLACEMENT_3D('',#236,#196,#197);
#167=AXIS2_PLACEMENT_3D('',#237,#198,#199);
#168=AXIS2_PLACEMENT_3D('',#239,#200,#201);
#169=AXIS2_PLACEMENT_3D('',#241,#202,#203);
#170=AXIS2_PLACEMENT_3D('',#242,#204,#205);
#171=AXIS2_PLACEMENT_3D('',#244,#206,#207);
#172=AXIS2_PLACEMENT_3D('',#246,#208,#209);
#173=AXIS2_PLACEMENT_3D('',#254,#211,#212);
#174=AXIS2_PLACEMENT_3D('',#255,#213,#214);
#175=DIRECTION('',(0.,0.,1.));
#176=DIRECTION('',(1.,0.,0.));
#177=DIRECTION('',(0.,0.,-1.));
#178=DIRECTION('',(-1.,0.,0.));
#179=DIRECTION('',(0.,0.,-1.));
#180=DIRECTION('',(-1.,0.,0.));
#181=DIRECTION('',(0.,0.,1.));
#182=DIRECTION('',(1.,0.,0.));
#183=DIRECTION('',(0.,0.,-1.));
#184=DIRECTION('',(-1.,0.,0.));
#185=DIRECTION('',(0.,0.,-1.));
#186=DIRECTION('',(-1.,0.,0.));
#187=DIRECTION('',(0.,0.,-1.));
#188=DIRECTION('',(-1.,0.,0.));
#189=DIRECTION('',(0.,0.,1.));
#190=DIRECTION('',(1.,0.,-8.06390731463141E-17));
#191=DIRECTION('',(0.,0.,-1.));
#192=DIRECTION('',(-1.,0.,0.));
#193=DIRECTION('',(0.,0.,-1.));
#194=DIRECTION('',(0.,0.,1.));
#195=DIRECTION('',(-1.,0.,0.));
#196=DIRECTION('',(0.,0.,1.));
#197=DIRECTION('',(1.,0.,3.05963733728086E-16));
#198=DIRECTION('',(0.,0.,1.));
#199=DIRECTION('',(-1.,0.,0.));
#200=DIRECTION('',(0.,0.,-1.));
#201=DIRECTION('',(-1.,0.,0.));
#202=DIRECTION('',(0.,0.,-1.));
#203=DIRECTION('',(-1.,0.,0.));
#204=DIRECTION('',(0.,0.,-1.));
#205=DIRECTION('',(-1.,0.,0.));
#206=DIRECTION('',(0.,0.,-1.));
#207=DIRECTION('',(-1.,0.,0.));
#208=DIRECTION('',(0.,0.,1.));
#209=DIRECTION('',(1.,0.,3.00174847421935E-16));
#210=DIRECTION('',(0.,0.,-1.));
#211=DIRECTION('',(0.,0.,-1.));
#212=DIRECTION('',(-1.,0.,0.));
#213=DIRECTION('',(0.,0.,-1.));
#214=DIRECTION('',(-1.,0.,0.));
#215=CARTESIAN_POINT('',(0.,0.,0.));
#216=CARTESIAN_POINT('',(0.,0.,0.));
#217=CARTESIAN_POINT('',(-23.,0.,0.));
#218=CARTESIAN_POINT('',(0.,0.,0.));
#219=CARTESIAN_POINT('',(-85.,0.,0.));
#220=CARTESIAN_POINT('',(85.,0.,0.));
#221=CARTESIAN_POINT('',(0.,0.,5.));
#222=CARTESIAN_POINT('',(-23.,0.,5.));
#223=CARTESIAN_POINT('',(0.,0.,0.));
#224=CARTESIAN_POINT('',(0.,0.,15.));
#225=CARTESIAN_POINT('',(-36.,0.,15.));
#226=CARTESIAN_POINT('',(0.,0.,5.));
#227=CARTESIAN_POINT('',(0.,0.,215.));
#228=CARTESIAN_POINT('',(-219.737961103585,0.,215.));
#229=CARTESIAN_POINT('',(36.,0.,15.));
#230=CARTESIAN_POINT('',(97.3475981077693,0.,15.));
#231=CARTESIAN_POINT('',(212.390296381795,0.,74.7982051079413));
#232=CARTESIAN_POINT('',(219.737961103585,0.,215.));
#233=CARTESIAN_POINT('',(0.,0.,0.));
#234=CARTESIAN_POINT('',(0.,0.,218.104671912486));
#235=CARTESIAN_POINT('',(-219.900670063921,0.,218.104671912486));
#236=CARTESIAN_POINT('',(0.,0.,215.));
#237=CARTESIAN_POINT('',(0.,0.,220.));
#238=CARTESIAN_POINT('',(-223.946219874719,0.,220.));
#239=CARTESIAN_POINT('',(0.,0.,220.));
#240=CARTESIAN_POINT('',(-221.89792913343,0.,220.));
#241=CARTESIAN_POINT('',(220.,0.,220.));
#242=CARTESIAN_POINT('',(0.,0.,218.947664043758));
#243=CARTESIAN_POINT('',(-224.944849409474,0.,218.947664043758));
#244=CARTESIAN_POINT('',(0.,0.,214.738678841831));
#245=CARTESIAN_POINT('',(-224.724265842006,0.,214.738678841831));
#246=CARTESIAN_POINT('',(0.,0.,219.738678841831));
#247=CARTESIAN_POINT('',(224.724265842006,0.,214.738678841831));
#248=CARTESIAN_POINT('',(223.084723426194,0.,183.454345900394));
#249=CARTESIAN_POINT('',(221.445181010382,0.,152.170012958956));
#250=CARTESIAN_POINT('',(211.492332961932,0.,58.9843435580409));
#251=CARTESIAN_POINT('',(148.246166480966,0.,29.4921717790205));
#252=CARTESIAN_POINT('',(85.,0.,0.));
#253=CARTESIAN_POINT('',(0.,0.,0.));
#254=CARTESIAN_POINT('',(0.,0.,218.));
#255=CARTESIAN_POINT('',(0.,0.,219.));
#256=MECHANICAL_DESIGN_GEOMETRIC_PRESENTATION_REPRESENTATION('',(#32),#257);
#257=(
GEOMETRIC_REPRESENTATION_CONTEXT(3)
GLOBAL_UNCERTAINTY_ASSIGNED_CONTEXT((#258))
GLOBAL_UNIT_ASSIGNED_CONTEXT((#264,#260,#259))
REPRESENTATION_CONTEXT('17-110_M8008A','TOP_LEVEL_ASSEMBLY_PART')
);
#258=UNCERTAINTY_MEASURE_WITH_UNIT(LENGTH_MEASURE(2.E-5),#264,
'DISTANCE_ACCURACY_VALUE','Maximum Tolerance applied to model');
#259=(
NAMED_UNIT(*)
SI_UNIT($,.STERADIAN.)
SOLID_ANGLE_UNIT()
);
#260=(
CONVERSION_BASED_UNIT('DEGREE',#262)
NAMED_UNIT(#261)
PLANE_ANGLE_UNIT()
);
#261=DIMENSIONAL_EXPONENTS(0.,0.,0.,0.,0.,0.,0.);
#262=PLANE_ANGLE_MEASURE_WITH_UNIT(PLANE_ANGLE_MEASURE(0.0174532925),#263);
#263=(
NAMED_UNIT(*)
PLANE_ANGLE_UNIT()
SI_UNIT($,.RADIAN.)
);
#264=(
LENGTH_UNIT()
NAMED_UNIT(*)
SI_UNIT(.MILLI.,.METRE.)
);
ENDSEC;
END-ISO-10303-21;
